Tétrades no Baixo


Cifras - Acordes Básicos


Para o aprendizado do contrabaixo tem notado pelos artigos postados no blog que tem bastante teoria e exercícios para praticar, pode até achar chato isso, mas não tem saída, tem que praticar e fazer esses exercícios regularmente.



 


Tétrades 


As tétrades são formadas a partir do padrão das tríades (Tônica 3ª 5ª) com a adição da dissonância, que pode ser qualquer nota, a ocorrência mais popular é a tétrade com a sétima, na qual usaremos como exemplo logo abaixo:

Tétrade Maior com a Sétima Maior: 


Formada pela Tônica, terça maior, quinta justa e sétima maior.

   T   3M  5J  7M
   C    E    G    B
   D   F#   A    C#
   E   G#   B    D#
   F   A     C     E
   G   B    D     F#
   A   C#  E     G#
   B   D#  F#    A#


Tétrade Maior com a Sétima Maior: C7+ (DÓ)

|-------4-|-------4-|
|---2-5---|-----5---|
|-3-------|-3-7-----|
|---------|---------|

Tétrade Maior com a Sétima Maior: D7+ (Ré)

|-------6-|-----2-6-|
|---4-7---|---4-----|
|-5-------|-5-------|
|---------|---------|

Tétrade Maior com a Sétima Maior: E7+ (Mi)

|-------8-|----------|
|---6-9---|----------|
|-7-------|----------|
|---------|----------|

Tétrade Maior com a Sétima Maior: F7+ (Fa)

|----------9--|-------|
|-----7-10----|-------|
|--8----------|-------|
|-------------|-------|

Tétrade Maior com a Sétima Maior:  G7+ (Sol)

|-------------|------------|
|---------4---|---------4--|
|---2--5------|-------5----|
|-3-----------|--3--7------|

Tétrade Maior com a Sétima Maior:  A7+ (La)

|-----------|----------13-|
|---------6-|----11-14----|
|---4--7----|-12----------|
|-5---------|-------------|

Tétrade Maior com a Sétima Maior: B7+ (Si)

|----------15--|--------|
|----13-16-----|--------|
|-14-----------|--------|
|--------------|--------|

Tétrade Maior com Sétima ou Sétima menor: 


Possui muita semelhança com a tétrade acima, porém com a sétima menor, trazendo a sétima meio tom para trás, ficando assim a tétrade apenas maior com sétima.



T   3M  5J   7m
C    E    G    Bb
D   F#   A     C
E   G#   B    D
F   A     C    Eb
G   B    D     F
A   C#  E     G
B   D#  F#    A

Tétrade Maior com Sétima de C7 (DÓ)

|--------3--|--------3--|
|---2-5-----|------5----|
|-3---------|-3--7------|
|-----------|-----------|

Tétrade Maior com Sétima de D7 (Ré)

|-------5--|-------|
|---4-7----|-------|
|-5--------|-------|
|----------|-------|

Tétrade Maior com Sétima de E7 (Mi)

|-------7---|--------|
|---6-9-----|--------|
|-7---------|--------|
|-----------|--------|

Tétrade Maior com Sétima de F7 (Fa)

|-------|---2--5-|
|---7-10|-3------|
|-8-----|--------|
|-------|--------|

Tétrade Maior com Sétima de G7 (Sol)

|--------|---4--7-|
|---9-12-|-5------|
|-10-----|--------|
|--------|--------|

Tétrade Maior com Sétima de A7 (La)

|-----------|-2--6----|
|-----11-14-|------2--|
|-12--------|---------|
|-----------|---------|

Tétrade Maior com Sétima de B7 (Si)

|-----------|-4--8-----|
|-----13-16-|-------4--|
|-14--------|----------|
|-----------|----------|

 Tétrade Menor com Sétima Menor: 


Formada pela Tônica, terça maior, quinta justa e sétima menor, além a sétima menor, essa tétrade também trás a terça menor, se diferenciando das demais e fazendo então uma tétrade menor.

T    3m  5J   7m
C    Eb   G     Bb
D     F    A     C
E     G    B     D
F     Ab   C    Eb
G    Bb   D     F
A    C     E      G
B    D    F#     A

Tétrade menor com Sétima Menor de Cm7 (DÓ)
 
|-------3-|
|-----5---|
|-3-6-----|
|---------|

 Tétrade menor com Sétima Menor de Dm7 (Ré)

|--------5-|-----2-5-|
|------7---|---3-----|
|-5--6-----|-5-------|
|----------|---------|

Tétrade menor com Sétima Menor de Em7 (Mi)

|--------7-|----------|
|------9---|----------|
|-7-10-----|----------|
|----------|----------|

Tétrade menor com Sétima Menor de Fm7 (Fa)

|-----------8--|-------|
|--------10----|-------|
|--8--11-------|-------|
|--------------|-------|

Tétrade menor com Sétima Menor de Gm7 (Sol)

|-------------|--------------|
|---------3---|-----------8--|
|------5------|--------10----|
|-3--6--------|--8--11-------|

Tétrade menor com Sétima Menor de Am7 (La)

|-----------|----------12-|
|---------5-|----10-14----|
|------7----|-12----------|
|-5--8------|-------------|

Tétrade menor com Sétima Menor de Bm7 (Si)

|----------14--|-----------|
|----12-16-----|---------7-|
|-14-----------|-------9---|
|--------------|-7--10-----|

 Tétrade Meio Diminuta: 


Tétrade formada pela tônica, terça menor, quinta diminuta e sétima menor.

T    3m   5°   7m
C    Eb   Gb    Bb
D     F    Ab    C
E     G    Bb    D
F     Ab   B     Eb
G    Bb   Db    F
A    C     Eb    G
B    D     F      A

 Tétrade Meio Diminuta de Cº (DÓ)

|--------3-|
|------4---|
|-3--6-----|
|----------|

Tétrade Meio Diminuta de Dº (Ré)

|--------5-|
|------6---|
|-5--8-----|
|----------|

 Tétrade Meio Diminuta de Eº (Mi)

|---------7-|
|-------8---|
|-7--10-----|
|-----------|

 Tétrade Meio Diminuta de Fº (Fa)

|-----------8--|
|---------9----|
|--8--11-------|
|--------------|

 Tétrade Meio Diminutar de Gº (Sol)

|-------------|
|--------3----|
|-----4-------|
|-3-6---------|

 Tétrade Meio Diminuta de Aº (La)

|-----------|
|---------5-|
|------6----|
|-5--8------|

 Tétrade Meio Diminuta de Bº (Si)

|------------|
|----------7-|
|--------8---|
|--7--10-----|