Como Tocar Baixo

Baixo Para Iniciantes - Parte 2

Não perca também a parte 1  e 3 do curso de baixo nos seguintes links
 


Depois que você praticar bem os exercícios do curso de baixo parte 1, pode treinar as técnicas de contra baixo como hammer on, pull off, slide. Técnicas como tap e slap é melhor deixar para quando estiver dominando essas técnicas mais básicas.



Como Tocar Baixo 

Veja nos links abaixo mais sobre as técnicas de baixo

Vibrato

Bend

Slide

Hammer On e Pull Off



Exercícios de tríades também devem fazer parte diariamente de seu estudo! Você pode explorar outras notas do braço para fazer esses exercícios tomando a atenção de sempre seguir a ordem de começar no grave, agudo, agudo.

Tríade Maior 


 Formulas

2 ton e 1ton e meio


Formação do acorde: I  III e V grau da escala ou T(tônica) 3 e 5.


                                                I       II      III     IV      V      VI     VII
Ex:  formação nota C:           Dó    Ré    Mi     Fá      Sol    Lá     Si



 TRÍADE MAIOR DE C (Dó)

G|-------|-----0--|
D|---2-5-|---2----|
A|-3-----|-3------|G

E|-------|--------|
OBS: Comece usando o dedo anelar da mão esquerda


TRÍADE MAIOR DE D ()

G|-------|-----2--|
D|---4-7-|---4----|
A|-5-----|-5------|
E|-------|--------|



 TRÍADE MAIOR DE E (Mi)

G|-------|---1--4-|
D|---6-9-|-2------|
A|-7-----|--------|
E|-------|--------|



TRÍADE MAIOR DE F (Fa)

G|-------|---2--5-|
D|---7-10|-3------|
A|-8-----|--------|
E|-------|--------|



 TRÍADE MAIOR DE G (Sol)

G|--------|---4--7-|
D|---9-12-|-5------|
A|-10-----|--------|
E|--------|--------|



 TRÍADE MAIOR DE A (La)

G|-----------|---2--6--|
D|-----11-14-|-2-------|
A|-12--------|---------|

E|-----------|---------|


 TRÍADE MAIOR DE B (Si)

G|-----------|---4--8---|
D|-----13-16-|-4--------|
A|-14--------|----------|
E|-----------|----------|




 Tríade Menor 

 Formulas

1ton e meio e 2 ton

 Formação do acorde: I  IIIb e V grau da escala ou T(tônica) 3b(bemol) e 5.


                                                I        II      III       IV      V      VI     VII
Ex:  formação nota C:           Dó      Ré    Mi       Fá     Sol     Lá     Si

TRÍADE MENOR DE Cm (DÓ)

G|-------|--------|
D|-----5-|-----5--|
A|-3-6---|---6----|
E|-------|-8------|

OBS: Comece usando o dedo indicador da mão esquerda

TRÍADE MENOR DE Dm ()

G|------2-|-----------|
D|---3----|-------7---|
A|-5------|----8------|
E|--------|-10--------|



 TRÍADE MENOR DE Em (Mi)

G|-------4--|-----------|
D|-2--5-----|-----------|
A|----------|------2----|
E|----------|-0--3------|



TRÍADE MENOR DE Fm (Fa)

G|---------|----------|
D|---------|---6--10--|
A|------3--|-8--------|
E|-1--4----|----------|



 TRÍADE MENOR DE Gm (Sol)

G|----3--7--|---------|
D|-5--------|---------|
A|----------|---1--5--|
E|----------|-3-------|



 TRÍADE MENOR DE Am (La)

G|-----------|---5--9--|
D|--------2--|-7-------|
A|-0---3-----|---------|
E|-----------|---------|




 TRÍADE MENOR DE Bm (Si)

G|-----------|---7--11---|
D|--------4--|-9---------|
A|-2---5-----|-----------|
E|-----------|-----------|


Mais sobre acordes visite ésse tópico Acordes.