Curso de Baixo

Baixo Para Iniciantes - Parte 1




Não perca também a parte 2 e 3 do curso de baixo nos seguintes links


Ter organização e disciplina é a chave para aprender contrabaixo!. Se a tivermos, vamos ter Animo para repetir incontáveis vezes todos os exercicios que melhoram a rapidez, sonoridade, intimidade com a musica e com o instrumento.
alongar.jpg
Para ser bem prático no assunto de como tocar baixo, vamos começar o curso.
Primeiro, faça alongamento dos braços, dedos e pulso, porque você vai fazer muita repetição de exercicios. Planeje seu tempo, quantas vezes na semana e quantas horas você para praticar o estudo do baixo.

1 - Depois de alongar, tem que fazer a afinação do instrumento veja como afinar
2 - Depois é fazer exercicios diários de: 


- tríade (maior, menor, maior com sétima maior, menor com sétima menor)
- escalas 
- técnicas básicas (hammer on, pull off, slide, etc)
- exercicios de movimentação no braço do instrumento para pegar agilidade, dentre outros que veremos no decorrer do curso.


Para continuar o curso será apresentado exercícios que são muito importantes para o estudo do baixo. Antes, falaremos de questões técnicas, específicas para a mão esquerda.Lembre-se sempre de manter os dedos perpendiculares(formando um ângulo de 90º com o braço do instrumento) ao braço do baixo, pois o caminho aos diversos pontos da escala será mais fácil. Experimente tocar uma linha de baixo qualquer ou uma frase que você conheça, ou ainda "caminhar" no braço do instrumento com os dedos deitados, e logo em seguida faça a mesma coisa com os dedos perpendiculares ao braço. Notou a diferença?.
Agora tente atingir o máximo de casas com o indicador (dedo um) na primeira casa, e o mínimo (dedo quatro), estando os dois dedos inclinados. Agora repita o processo com os dedos na posição correta. Ficou muito mais fácil não é?
Vamos a alguns exercícios para independência dos dedos da mão esquerda. Antes de começar, vamos a algumas explicações sobre os exercícios: Os exercícios são para independência dos dedos, não para velocidade. 
Portanto, execute-os de forma lenta e constante, para que a sua mente se "acostume" a eles e conseqüentemente fiquem mais familiares aos seus dedos. 
Se você errar, volte do princípio. 
Caso não tenha um metrônomo, providencie um o mais rápido possível, e enquanto você espera chegar bata o pé em ritmo constante enquanto faz os exercícios. 
Lembre-se de alternar os dedos da mão direita para cada nota tocada com a mão esquerda. Por enquanto utilize apenas o dedo indicador e médio (dedos um e 2) da mão direita. 

Use um dedo da mão esquerda para cada casa.

Exercícios:
Exemplo
1234
1 = dedo indicador da mão esquerda,
2 = dedo médio da mão esquerda,
3 = dedo anelar da mão esquerda e, 
4 = dedo mínimo da mão esquerda.

Mais exercícios - fazer lentamente para depois aumentar a velocidade!
Casas 

1 2 3 4
1 2 4 3
1 3 2 4
1 3 4 2
1 4 2 3
1 4 3 2


2 3 4 1
2 31 4
2 4 3 1
2 4 1 3
2 1 3 4
2 1 4 3


3 1 2 4
3 1 4 2
3 2 1 4
3 2 4 1
3 4 1 2
3 4 2 1


4 1 2 3
4 1 3 2
4 2 3 1
4 2 1 3
4 3 1 2
4 3 2 1

Faça o exercício preferencialmente começando na casa um.



Faça a seqüência quantas vezes quiser.

Altere as casas, começando na casa cinco, por exemplo.

Preste atenção à mão direita.

Durante o exercício, e também para tocar normalmente, convém prestar muita atenção à altura da alça utilizada. Sim, ela deve estar regulada de forma a que você possa manter seu antebraço esquerdo a noventa graus em relação ao braço. Isso é muito importante!!!.

Caso contrário, sua técnica vai se perder. Sim é muito mais difícil tocar com o instrumento lá embaixo, mais isso não é mérito algum para quem o faz, muito pelo contrário, denota total desconhecimento técnico.

Agora vamos fazer um exercício muito parecido com o primeiro, para independência dos dedos também, mas com alternância de cordas.

Casas: 
Descendo - começa o exercício na corda E e vai até chegar na corda G

1 2 3 4
2 3 4 5
3 4 5 6
4 5 6 7

Subindo - começa o exercício pela corda G e vai até chegar na coda E

7 – 8 - 9 - 10
8 - 9 - 10 - 11
9 - 10 - 11 - 12
10 - 11 - 12 - 13

Esses são exercícios fundamentais tanto para iniciantes quanto para profissionais. Servem também para "esquentar" os dedos antes de apresentações.

Não desista, com três dias de execução regular dos exercícios você já notará a diferença. Quanto mais vezes você fizer, melhor ficará sua execução. 



Exércicios Técnicos


Neste parte colocamos alguns exercícios que irão te ajudar tecnicamente falando. São técnicas psicomotaras, de aquecimento, improvisação de agilidade nos dedos. Confira abaixo:

Psicomotor 



Esses exercícios melhoram, e bastante, a parte Psicomotora. 
Assim como os demais, deve ser feito bem devagar e ir aumentando a velocidade.

Psicomotor 1


------------------------------------4--3--2-------------------------------------
-------------------------1--2--3---------------1--2--3--------------------------
-------------4--3--2--------------------------------------4--3--2---------------
--1--2--3------------------------------------------------------------1--2--3--4-

Psicomotor 2


1--2---------------------------------------------------------3--4--1--2---
--------3--4---------------------------------------1--2-------------------
----------------1--2-----------------------3--4---------------------------
-------------------------3--4--1--2---------------------------------------

Movimentação


-------------------------------------------------------------4---5---6---7----
-----------------------------------------3---4---5---6------------------------
----------------------2---3---4---5-------------------------------------------
1---2---3---4-----------------------------------------------------------------

Obs: Ao terminar a escala, fazer o mesmo exercício decrescente


Escada de Braço


1---------------------------------8-----7------------------------1-----
----2-----------------------7----------------6---------------2---------
--------3-------------6--------------------------5-------3-------------
------------4----5-----------------------------------4-----------------
 


Exercícios para aquecimento e maior agilidade dos dedos.



Aconselho que se faça esses exercícios durante 15 dias, uma hora por dia. O resultado é muito bom. Depois dos 15 dias os dedos vão deslizar no braço.

Deve ser feito bem devagar e ir aumentando a velocidade. De preferência, use um metrônomo.

 

--------------------------------------------------------------1---2---3---4------
------------------------------------------1---2---3---4-------------------------1---2---3---4---------------------------------------------
----------------------1---2---3---4-----------------------------------------------------------------1---2---3---4-------------------------
--1---2---3---4---------------------------------------------------------------------------------------------------------1---2---3---4-----


--------------------------------------------------------------1---2---4---3--------------------------------
------------------------------------------1---2---4---3-------------------------1---2---4---3---------------------------------------------
----------------------1---2---4---3-----------------------------------------------------------------1---2---4---3-------------------------
--1---2---4---3---------------------------------------------------------------------------------------------------------1---2---4---3-----


--------------------------------------------------------------2---3---4---1-------------------------------
------------------------------------------2---3---4---1-------------------------2---3---4---1---------------------------------------------
----------------------2---3---4---1-----------------------------------------------------------------2---3---4---1-------------------------
--2---3---4---1---------------------------------------------------------------------------------------------------------2---3---4---1-----


--------------------------------------------------------------3---4---2---1------
------------------------------------------3---4---2---1-------------------------3---4---2---1---------------------------------------------
----------------------3---4---2---1-----------------------------------------------------------------3---4---2---1-------------------------
--3---4---2---1---------------------------------------------------------------------------------------------------------3---4---2---1-----


--------------------------------------------------------------4---3---2---1------
------------------------------------------4---3---2---1-------------------------4---3---2---1---------------------------------------------
----------------------4---3---2---1-----------------------------------------------------------------4---3---2---1-------------------------

--4---3---2---1---------------------------------------------------------------------------------------------------------4---3---2---1-----


--------------------------------------------------------------1---3---2---4------
------------------------------------------1---3---2---4-------------------------1---3---2---4---------------------------------------------

----------------------1---3---2---4-----------------------------------------------------------------1---3---2---4-------------------------
--1---3---2---4---------------------------------------------------------------------------------------------------------1---3---2---4-----


--------------------------------------------------------------2---4---1---3------
------------------------------------------2---4---1---3-------------------------2---4---1---3---------------------------------------------
----------------------2---4---1---3-----------------------------------------------------------------2---4---1---3-------------------------
--2---4---1---3---------------------------------------------------------------------------------------------------------2---4---1---3-----
 


 Se você tem duvida em tablatura veja um artigo sobre o assunto Tablaturas