Arpejo no Contra Baixo

Arpejo no Baixo





As notas que formam o arpegio são as mesmas que formam os Acordes.
Os acordes são usados geralmente na parte de acompanhamento para guitarra ou violão e a diferença é que as notas que formam os acordes são tocadas simultaneamente, todas ao mesmo tempo.Treinem bastante esses exercícios, pois eles são fundamentais na parte de acompanhamento com o Baixo.



Arpejo



 Arpegio de C


G||-------------------------|--9----12p---9----------|-------------------||
D||-------------------10----|------------------10----|-------------------||
A||-------------10----------|------------------------|--10---------------||
E||--8----12----------------|------------------------|--------12----8----||


Arpegio de Cm


G||-------------------------|--8----12p---8----------|--------------------||
D||-------------------10----|------------------10----|--------------------||
A||-------------10----------|------------------------|--10----------------||
E||--8----11----------------|------------------------|--------11----8-----||

Arpegio C7M


G||-----------------------|--------9---------------|----------------------||
D||------------------9----|--10---------10----9----|----------------------||
A||-------7----10---------|------------------------|--10----7-------------||
E||--8--------------------|------------------------|-------------8--------||

Arpegio de C7


G||-----------------------|--------9---------------|----------------------||
D||------------------8----|--10---------10----8----|----------------------||
A||-------7----10---------|------------------------|--10----7-------------||
E||--8--------------------|------------------------|-------------8--------||

Arpegio Cm7M


G||-----------------------|--------8---------------|----------------------||
D||------------------9----|--10---------10----9----|----------------------||
A||-------6----10---------|------------------------|--10----6-------------||
E||--8--------------------|------------------------|-------------8--------||

Arpegio de Cm7


G||-----------------------|--------8---------------|----------------------||
D||------------------8----|--10---------10----8----|----------------------||
A||-------6----10---------|------------------------|--10----6-------------||
E||--8--------------------|------------------------|-------------8--------||

Arpegio de C7M


G||-----------------4----|--5----4--------------|-------------------||
D||-------2----5---------|------------5----2----|-------------------||
A||--3-------------------|----------------------|--3----------------||
E||----------------------|----------------------|-------------------||

Arpegio de C7


G||-----------------3----|--5----3--------------|-------------------||
D||-------2----5---------|------------5----2----|-------------------||
A||--3-------------------|----------------------|--3----------------||
E||----------------------|----------------------|-------------------||

Arpegio de Cm7M


G||-----------------4----|--5----4--------------|-------------------||
D||-------1----5---------|------------5----1----|-------------------||
A||--3-------------------|----------------------|--3----------------||
E||----------------------|----------------------|-------------------||

Arpegio de Cm7


G||-----------------3----|--5----3--------------|-------------------||
D||-------1---5-------- -|------------5----1----|-------------------||
A||--3-------------------|----------------------|--3----------------||
E||----------------------|----------------------|-------------------||

Arpegio de G


G||----------------------|--4----7p---4---------|---------------------||
D||-----------------5----|-----------------5----|---------------------||
A||-------2----5---------|----------------------|--5----2-------------||
E||--3-------------------|----------------------|------------3--------||

Arpegio de Gm


G||----------------------|--3----7p---3---------|---------------------||
D||-----------------5----|-----------------5----|---------------------||
A||-------1----5---------|----------------------|--5----1-------------||
E||--3-------------------|----------------------|------------3--------||

Arpegio de Cdim


G||----------------------|----------------------|----------------------|
D||----------------------|------------4---------|--4----7----4----7----|
A||--3---------3----6----|--3----6---------6----|----------------------|
E||-------5--------------|----------------------|----------------------|


--5----5--------------|----------------------|----------------------|
------------7----4----|--7----4---------4----|----------------------|
----------------------|------------6---------|--6----3----6----3----|
----------------------|----------------------|----------------------|


--------------------||
--------------------||
-------3~-----------||
--5-----------------||

Arpegio de E


G||----------------------|--1----4p---1---------|---------------------||
D||-----------------2----|-----------------2----|---------------------||
A||------------2---------|----------------------|--2------------------||
E||--0----4--------------|----------------------|-------4----0--------||

Seqüência de Arpegios em Am

G||----------------------|--5----9p---5---------|------------7----12p---|
D||-----------------7----|-----------------7----|-------9---------------|
A||-------3----7---------|----------------------|--7--------------------|
E||--5-------------------|----------------------|-----------------------|


--7---------------------|--9----12p---9----------|--------------10----14p---|
-------9----------10----|------------------10----|--------12----------------|
------------10----------|------------------------|--10----------------------|
------------------------|------------------------|--------------------------|


--10----------------------|--------------------------|
--------12----------------|--------------------------|
--------------12----------|--------------11----14----|
--------------------13----|--10----12----------------|


--------------------13----|--------------------------|------------------------|
--12----13----14----------|--14----13----12----------|------------------------|
--------------------------|--------------------14----|--11---------------3----|
--------------------------|--------------------------|--------12----5---------|


-------2----5----4----|--2---------2---------|----------------------|
--2-------------------|-------3---------3----|--2-------------------|
----------------------|----------------------|-------5----3----2----|
----------------------|----------------------|----------------------|


----------------------|------------5----9p---|--5-------------------|
----------------------|-------7--------------|-------7--------------|
----------------------|--7-------------------|------------7---------|
--5----0----5----8----|----------------------|-----------------8----|


---------------------||
---------------------||
---------------------||
--5----0----5~-------||


Seqüência de Arpegios em Dm

G||--14p---10----------10----|--14p---10----------10----|
D||--------------12----------|--------------12----------|

A||--------------------------|--------------------------|
E||--------------------------|--------------------------|


--14p---10----------10----|--14p---10----------10----|--12p---9----------9----|
--------------12----------|--------------12----------|-------------11---------|
--------------------------|--------------------------|------------------------|
--------------------------|--------------------------|------------------------|


--12p---9----------9----|--12p---9----------9----|--12p---9----------9----|
-------------11---------|-------------11---------|-------------11---------|
------------------------|------------------------|------------------------|
------------------------|------------------------|------------------------|


--14p---10----------10----|--14p---10----------10----|
--------------12----------|--------------12----------|
--------------------------|--------------------------|
--------------------------|--------------------------|


--14p---11----------10----|--14p---11----------10----|
--------------12----------|--------------12----------|
--------------------------|--------------------------|
--------------------------|--------------------------|


--15p---12----------12----|--15p---12----------12----|
--------------12----------|--------------12----------|
--------------------------|--------------------------|
--------------------------|--------------------------|


--14p---10----------10----|--14p---10----------12p---|--9----------9----12p---|
--------------12----------|--------------12----------|-------11---------------|
--------------------------|--------------------------|------------------------|
--------------------------|--------------------------|------------------------|


--9----------9----------|----------------------||
-------11---------12----|----------------------||
------------------------|--12------------------||
------------------------|--------10~-----------||


Seqüência de Arpegios em Em

G||--16----14----16----12----|--------------------------|
D||--------------------------|--14----------------------|
A||--------------------------|--------14----------------|
E||--------------------------|--------------15----12----|


--------------------12----|--16----14----16----14----|
--------------14----------|--------------------------|
--------14----------------|--------------------------|
--15----------------------|--------------------------|


--12----14----11----------|--------------------------|
--------------------12----|--------------------------|
--------------------------|--12----------------------|
--------------------------|--------14----10----14----|


--------------11----14----|--12----14----12----11----|--12----9----------------|
--------12----------------|--------------------------|-------------10----------|
--12----------------------|--------------------------|-------------------10----|
--------------------------|--------------------------|-------------------------|


-------------------------|--------9----12----11----|--12----11----9----11----|
-------------------------|--10---------------------|-------------------------|
-------------------10----|-------------------------|-------------------------|
--12----8----12----------|-------------------------|-------------------------|


--8--------------------|-----------------------|--8----11----9----11----|
-------9---------------|------------------9----|------------------------|
------------9----------|-------------9---------|------------------------|
-----------------11----|--7----11--------------|------------------------|


----------------------|------------4h---5p---|--4-------------------|
----------------------|-------5--------------|-------5--------------|
-----------------5----|--7-------------------|------------7----5----|
--0----3----7---------|----------------------|----------------------|


----------------------|---------------------||
----------------------|--2------------------||
-----------------2----|---------------------||
--7----3----0---------|-------0----0--------||