Aprendendo a Tocar Baixo

Aprendendo a Tocar Baixo


EXERCÍCIO 1 - Pizzicato "tipo Cavalgada"




Cordas  (E A D G) 
 
   
|----------------------------------|-------------------------|
|----------------------------------|-------------------------|
|-7--7-7-7--8-7--7-7-7--8-7--7-7-7-|-3--3-3-3--3-3-3--3-3-3--|
|----------------------------------|-------------------------|


|----------------|---------------|------------------------------|
|----------------|---------------|-------------------------10-9-|
|----------------|-5--5-5-5--5-5-|-7--7-7-7--8-7--7-7-7--7------|
|-5--5-5-5--5-5--|---------------|------------------------------|

 
Gerado usando o aplicativo Power Tab Editor " The Official Power Tab Web Site"
A matéria sobre o uso de Power Tab Editor pode ser visto aqui! 

Você pode fazer esse exercício tocando com os dedos ou com palheta!.
 
Tocando com os dedos
Cavalgada nada mais é que usar o pizzicato para tocar, podendo ser tocado com 2 ou 3 dedos. São usadas em partes mais rápidas das músicas, geralmente no heavy metal.



Exemplo para 2 dedos

I-M-I Pausa I-M-I
ou
I-Pausa-I-M-I

Legenda:
I = Indicador
M = Médio

Exemplo para 3 dedos:

A-M-I pausa A-M-I pausa A-M-I
A - M - I - M
I - M - A

Legenda:
I = Indicador
M = Médio
A = Anelar

Você pode iniciar pelo dedo Médio, use essa técnica da forma que achar melhor!.
Para ler mais sobre a técnica de pizzicato veja esse artigo!

Tocando com a palheta
 
Para tocar com a palheta é so seguir o basico de uma palhetada para baixo e outra para cima tocando um pouco mais rápido nas partes com cavalgada, pois no própriotermo ja diz "cavalgada" como pode ser visto no exercicio 1 da tablatura acima nas partes com 3 notas "777" "333" "555".